Четверг, 22.10.2020, 10:09
Приветствую Вас Гость |

Flow Island

Sign(solo) (Tabs)

Sign(solo)

Tuning: Standard

Acoustic Part
e|---------------------------------------------------------------------------|
B|---------------------------------------------------------------------------|
G|-14-14-14-12-11-11h12---------14-------------------------------------------|
D|---------------------12-12\14----14p12-12-----------11-12-11-12\14-12------|
A|-----------------------------------------12\14-12-14-----------------14-12-|
E|---------------------------------------------------------------------------|

e|---------------------------------------------------------------------------|
B|---------15-15\17-17-15-14-14-14-15-15-141414-15-14-12\14-14-14-15-15-15-15|
G|-14-14-14------------------------------------------------------------------|
D|---------------------------------------------------------------------------|
A|---------------------------------------------------------------------------|
E|---------------------------------------------------------------------------|
Electric Part
e|-14-15-14---------------------17-------------------------------------------|
B|---------15\17--14-15-17-15-14--17-15-14-15-14----15------------------15-14|
G|----------------------------------------------14----16-----14-16-14-16-----|
D|------------------------------------------------16----14\16----------------|
A|---------------------------------------------------------------------------|
E|---------------------------------------------------------------------------|

e|-----------------------14-17-----------------------------------------------|
B|------15-14-15-17-15-17----------------------------------------------------|
G|-14-16---------------------------------------------------------------------|
D|---------------------------------------------------------------------------|
A|---------------------------------------------------------------------------|
E|---------------------------------------------------------------------------|


************************************

| / slide up
| \ slide down
| h hammer-on
| p pull-off
| ~ vibrato
| + harmonic
| x Mute note
| b Bend
| pb Pre-bend
| br Bend release
| pbr Pre-bend release
| brb Bend release bend

************************************





Ваша любимая песня из альбома "ISLE" (March 19, 2008)
Всего ответов: 33
500
Сейчас на сайте
Онлайн всего: 1
Гостей: 1
Пользователей: 0

Сегодня были