Четверг, 22.10.2020, 09:38
Приветствую Вас Гость |

Flow Island

Realize (Tabs)

standard

intro pt.1
e------------------------------------|
b------------------------------------|
g------------------------------------|
d-7-7-x-x--5-5-x-x--3-3-x-x--2-2-x-x-| 2x
a-7-7-x-x--5-5-x-x--3-3-x-x--2-2-x-x-|
e-5-5-x-x--3-3-x-x--1-1-x-x--0-0-x-x-|

intro pt.2
e------------------------------------|
b------------------------------------|
g------------------------------------|
d-7-7-7-7--5-5-5-5--3-3-3-3--2-2-2-2-| 2x
a-7-7-7-7--5-5-5-5--3-3-3-3--2-2-2-2-|
e-5-5-5-5--3-3-3-3--1-1-1-1--0-0-0-0-|

intro pt.3/post chorus
e--------------------|
b--------------------|
g-----------5-5------|
d-7-7--5-5--5-5--5-5-| 2x
a-7-7--5-5--3-3--5-5-|
e-5-5--3-3-------3-3-|

guitar 2 (solo riff thing played a lot in song)
e-------17-17-15-15-------------------------------|
b-15-15-------------17-17-15-15-17-17-15-15-------|
g-------------------------------------------16-16-|
d-------------------------------------------------|
a-------------------------------------------------|
e-------------------------------------------------|

verse part 1
e-------------------------------------------|
b-------------------------------------------|
g-------------------------------------------|
d-77xxxxxx--33xxxxxx--22xxxxxx--5555-6666---| 2x
a-77xxxxxx--33xxxxxx--22xxxxxx--5555-6666---|
e-55xxxxxx--11xxxxxx--00xxxxxx--3333-4444---|

verse part 2
e- (this part of verse didn't have the palm muting like 1st part of verse from what i heard and
b- just sounded like the power chords played twice but not quickly. but if you want the palm
g- muting then play the first part of verse again)
d-7--7--3--3--2--2--5-6--7--7--3--3--2--2--5555-6666-|
a-7--7--3--3--2--2--5-6--7--7--3--3--2--2--5555-6666-|
e-5--5--1--1--0--0--3-4--5--5--1--1--0--0--3333-4444-|

pre-chorus
e----------------------------------------|
b----------------------------------------|
g----------------------------------------|
d-3-3--5-5--2-2--7-7--3-3--5-5--2-2-xxx7-|
a-3-3--5-5--2-2--7-7--3-3--5-5--2-2-xxx7-|
e-1-1--3-3--0-0--5-5--1-1--3-3--0-0-xxx5-|

e----------------------------------------|
b----------------------------------------|
g----------------------------------------|
d-3333-5555-2222-7777-33333333-222222222-|
a-3333-5555-2222-7777-33333333-222222222-|
e-1111-3333-0000-5555-11111111-000000000-|

chorus
e-----------------------------------------------------|
b-----------------------------------------------------|
g----------------------------------------555555555555-|
d-333333333333-555555555555-222222222222-555555555555-| 2x
a-333333333333-555555555555-222222222222-333333333333-|
e-111111111111-333333333333-000000000000--------------|

bridge - not quite sure. working with an acoustic here and partially tone deaf too.

end with
e----
b----
g-5~-
d-5~-
a-3~-
e----




Ваша любимая песня в альбоме"MICROCOSM" (16 июня 2010)
Всего ответов: 39
500
Сейчас на сайте
Онлайн всего: 1
Гостей: 1
Пользователей: 0

Сегодня были