Четверг, 22.10.2020, 09:26
Приветствую Вас Гость |

Flow Island

Life is Beautiful (Tabs)

 Life is Beautiful - Flow
-------------------------------------------------------------------------------

Tuning: Standard

This song is fairly easy & shouldn't be too much trouble.
Any comments or suggestions please email me or post in comments section. I
had to revise some of the verse & chorus.

Verse 1 after bass 2 times
e|-------|---------------------------------------|----------------------------------------|
B|-------|---------------------------------------|----------------------------------------|
G|-------|--------------------7-7-7-7-7-7-7-7-7--|----------------------------------------|
D|-12\5--|-5-5-5-5-5-5-5-5-5--7-7-7-7-7-7-7-7-7--|-7----5--------5--------7----5----5-5---|
A|-12\5--|-5-5-5-5-5-5-5-5-5--5-5-5-5-5-5-5-5-5--|-7----5----5-------5----7----5----5-5---|
E|-10\3--|-3-3-3-3-3-3-3-3-3---------------------|-5----3--3---3---3---3--5----3----3-3---|

Chorus (get your trigger finger ready lol)
e|---------------------------------------------------------------------------|
B|---------------------------------------------------------------------------|
G|-7777777777777777-44444444444444444444444444444444-------------6--7--9-----|
D|-7777777777777777-44444444444444444444444444444444-55555555-7--6--7--9-----|
A|-5555555555555555-22222222222222222222222222222222-55555555-7--4--5--7-----|
E|---------------------------------------------------33333333-5--------------|
(16 times) (32 times) (8)
I do all down strokes, but you can alternate if you want


e|-----------------------------------|---------------------|-----------------|
B|-----------------------------------|---------------------|-----------------|
G|-7777777777777777-4444444444444444-|---------------------|-----------------|
D|-7777777777777777-4444444444444444-|-9-9--7-7--5-5555555-|-9-9--7-7--5-----|
A|-5555555555555555-2222222222222222-|-9-9--7-7--5-5555555-|-9-9--7-7--5-----|
E|-----------------------------------|-7-7--5-5--3-3333333-|-7-7--5-5--3-----|

Solo 1
e|--------------------------------------------------------------------------9-10|
B|-/10~----10-8-7--------------------------------------------------------10-----|
G|-----------------9--11-11--11-12-11-9-7-7-6-7~----6-7-7-9-9-11-9-11-12--------|
D|------------------------------------------------------------------------------|
A|------------------------------------------------------------------------------|
E|------------------------------------------------------------------------------|
Verse 2
e|-------------------------------------|-------------------------------------|
B|-------------------------------------|-------------------------------------|
G|----------------------------77777777-|----------------------------7--------|
D|-55555555-44444444-77777777-77777777-|-55555555-44444444-77777777-7--------|
A|-55555555-44444444-77777777-55555555-|-55555555-44444444-77777777-5--------|
E|-33333333-22222222-55555555----------|-33333333-22222222-55555555----------|
pm ..............................................................

2 times
e|--------------------------------------|--------------------------------------|
B|--------------------------------------|--------------------------------------|
G|--------------------7-7-7-7-7-7-7-7-7-|--------------------------------------|
D|-5-5-5-5-5-5-5-5-5--7-7-7-7-7-7-7-7-7-|-7----5--------5--------7----5----5-5-|
A|-5-5-5-5-5-5-5-5-5--5-5-5-5-5-5-5-5-5-|-7----5----5-------5----7----5----5-5-|
E|-3-3-3-3-3-3-3-3-3--------------------|-5----3--3---3---3---3--5----3----3-3-|

Chorus

Solo 2 (best one)
e|----------------------------------------------------------9--10--9---10-9-10-------|
B|--/10~-----10-8-7-8-7h8p7---------------------------10-10--10--10-10---------------|
G|--------------------------7-9-7---11-12-11-12-11-12--------------------------------|
D|-----------------------------------------------------------------------------------|
A|-----------------------------------------------------------------------------------|
E|-----------------------------------------------------------------------------------|

e|-12-14-15-14-12-14-12h14p12--------------------------------------------------------|
B|---------------------------15-14-15-15-14-15-15b17r15-14-15-15-14-15-15b17r15-14---|
G|-----------------------------------------------------------------------------------|
D|-----------------------------------------------------------------------------------|
A|-----------------------------------------------------------------------------------|
E|-----------------------------------------------------------------------------------|

e|-15-15-14-14-12-12-----------------------------15-15-14-14-12-12-------------------|
B|-------------------14-15-15-14-15-15b17r15-14--------------------14-15-15-14-15----|
G|-----------------------------------------------------------------------------------|
D|-----------------------------------------------------------------------------------|
A|-----------------------------------------------------------------------------------|
E|-----------------------------------------------------------------------------------|

e|-12-14--------------------12-14-14--12----------12-12---12-----------12-12-12-12-----|
B|--------15-15-14-14-15-15---------------14--15-------------15-14-15------------------|
G|-------------------------------------------------------------------------------------|
D|-------------------------------------------------------------------------------------|
A|-------------------------------------------------------------------------------------|
E|-------------------------------------------------------------------------------------|

e|-14-14-14-14-15-15-15-15-17~-----|
B|---------------------------------|
G|---------------------------------|
D|---------------------------------|
A|---------------------------------|
E|---------------------------------|

Chorus

3 times
e|----------------------|----------------|
B|----------------------|----------------|
G|----------------------|----------------|
D|-9-9--7-7--5-5555555--|-9-9--7-7--5----|
A|-9-9--7-7--5-5555555--|-9-9--7-7--5----|
E|-7-7--5-5--3-3333333--|-7-7--5-5--3----|

Solo 3 (play twice)
e|----------12--14--15--14--12------------------12--14--15--14--15--14--17~--|
B|-15-14-15---------------------14-15--15-14-15------------------------------|
G|---------------------------------------------------------------------------|
D|---------------------------------------------------------------------------|
A|---------------------------------------------------------------------------|
E|---------------------------------------------------------------------------|

e|---------------------------------------------------------------------------|
B|---------------------------------------------------------------------------|
G|----------------------------77777777----------------------------7777777-7--|
D|-55555555-44444444-77777777-77777777-55555555-44444444-77777777-7777777-7--|
A|-55555555-44444444-77777777-55555555-55555555-44444444-77777777-5555555-5--|
E|-33333333-22222222-55555555----------33333333-22222222-55555555------------|
pm ....................................................................

| / slide up
| \ slide down
| h hammer-on
| p pull-off
| ~ vibrato
| + harmonic
| x Mute note
===============================================================================




Ваша любимая песня из альбома "ISLE" (March 19, 2008)
Всего ответов: 33
500
Сейчас на сайте
Онлайн всего: 1
Гостей: 1
Пользователей: 0

Сегодня были