Четверг, 22.10.2020, 09:11
Приветствую Вас Гость |

Flow Island

Everything Alright(Tabs)

Flow - Everything Alright

Standard Tuning

Intro
E|-------------------------------------------------|
B|-------------------------------------------------|
G|9-9---9-9---9-9--------9-9---9-9---9-9-----------|
D|9-9---9-9---9-9-776764-9-9---9-9---9-9--777-9----|
A|7-7---7-7---7-7-776764-7-7---7-7---7-7--777-9----|
E|----------------554542------------------555-7----|

Verses
E|--7-7-7-7--7-7-7-7--5-5-5-5-5-5-5-5------------|
B|--9-9-9-9--7-7-7-7--5-5-5-5-5-5-5-5------------|
G|--9-9-9-9--8-8-8-8--6-6-6-6-6-6-6-6------------| x4
D|--9-9-9-9--9-9-9-9--7-7-7-7-7-7-7-7------------|
A|-----------------------------------------------|
E|-----------------------------------------------|

Pre-Choruses
E|--------------------------------------------------|
B|--------------------------------------------------|
G|-------------------------------9-9-9-9-99-9-99-9--|
D|-x\\\\\------7-7-7-7--9-9-9-9--9-9-9-9-99-9-99-9--|
A|-x\\\\\\-----7-7-7-7--9-9-9-9--7-7-7-7-77-7-77-7--|
E|-x\\\\\\\----5-5-5-5--7-7-7-7---------------------|
Pick Slide pm pm

E|-----------------------------------------------|
B|-----------------------------------------------|
G|------------------9-9-9-9-9-9-9-9-9-9----------|
D|7-7-7-7--9-9-9-9--9-9-9-9-9-9-9-9-9-9----------|
A|7-7-7-7--9-9-9-9--7-7-7-7-7-7-7-7-7-7----------|
E|5-5-5-5--7-7-7-7-------------------------------|

E|------------------------------------------------------------------------------------------|
B|------------------------------------------------------------------------------------------|
G|--------------------9-9------------------------------------9-9-9-9-9-9-9-9-9-9------------|
D|--7-7-7-7--9-9-9-9--9-9--9-9-11-11-11-11-7-7-7-7--9-9-9-9--9-9-9-9-9-9-9-9-9-9--9-9-9-9---|
A|--7-7-7-7--9-9-9-9--7-7--9-9-11-11-11-11-7-7-7-7--9-9-9-9--7-7-7-7-7-7-7-7-7-7--9-9-9-9---|
E|--5-5-5-5--7-7-7-7-------7-7-9--9--9--9--5-5-5-5--7-7-7-7-----------------------7-7-7-7---|

Choruses
E|---------------------------------------------------------------------------|
B|---------------------------------------------------------------------------|
G|-9-9-9-9-9-9----------------------------------9-9-9-9-9-9------------------|
D|-9-9-9-9-9-9--9-9-9-9-9-9--11-11-11-11-11-11--9-9-9-9-9-9-7-7-7-7--9-9-9-9-|-----|
A|-7-7-7-7-7-7--9-9-9-9-9-9--11-11-11-11-11-11--7-7-7-7-7-7-7-7-7-7--9-9-9-9-| |
E|--------------7-7-7-7-7-7--9--9--9--9--9--9---------------5-5-5-5--7-7-7-7-| |
|
--------------------------------| |
--------------------------------| | x2
-9-9-9-9-9-9-9-9-9-9------------| |
-9-9-9-9-9-9-9-9-9-9--9-9-9-9---|--------------------------------------------------|
-7-7-7-7-7-7-7-7-7-7--9-9-9-9---|
----------------------7-7-7-7---|

Bridge
E|--7--7--5--5--7------------|
B|--9--7--5--5--7------------|
G|--9--8--6--6--8------------| x2
D|--9--9--7--7--9------------|
A|---------------------------|
E|---------------------------|
Let each Chord ring

Outro
E|--------------------------------------------------------------------------------|
B|--------------------------------------------------------------------------------|
G|--------------------9-9------------------------------------9-9-9-9-9-9-9-9-9-9--|
D|--7-7-7-7--9-9-9-9--9-9--9-9-11-11-11-11-7-7-7-7--9-9-9-9--9-9-9-9-9-9-9-9-9-9--|
A|--7-7-7-7--9-9-9-9--7-7--9-9-11-11-11-11-7-7-7-7--9-9-9-9--7-7-7-7-7-7-7-7-7-7--|
E|--5-5-5-5--7-7-7-7-------7-7-9--9--9--9--5-5-5-5--7-7-7-7-----------------------|

That's everything you need to play the song just add mutes between chords
where appropiate by listening to the song i couldn't get the lead down.




Ваша любимая песня с альбома "Game" (May 26, 2004)
Всего ответов: 27
500
Сейчас на сайте
Онлайн всего: 1
Гостей: 1
Пользователей: 0

Сегодня были