Четверг, 22.10.2020, 09:47
Приветствую Вас Гость |

Flow Island

Blaster (Tabs)

-------------------------------------------------------------------------------
Flow - Blaster
-------------------------------------------------------------------------------

Tuning: Drop D
Intro (Lead) effect on, don't let each note ring, repeat as necessary
e|---------------------------------------------------------------------------|
B|---------------------------------------------------------------------------|
G|5---5---5------------------------------------------------------------------|
D|---------------------------------------------------------------------------|
A|--3---3--------------------------------------------------------------------|
E|---------------------------------------------------------------------------|

Verse
e|---xxxxxxx---xxxxxxx---xxxxxxx--------------------------|
B|---xxxxxxx---xxxxxxx---xxxxxxx--------------------------|
G|-5-xxxxxxx---xxxxxxx-5-xxxxxxx--------------------------|
D|-5-xxxxxxx-5-xxxxxxx-5-xxxxxxx--5-5-5-5-6---------------|
A|-3-xxxxxxx-5-xxxxxxx-3-xxxxxxx--5-5-5-5-6---------------|
E|---xxxxxxx-5-xxxxxxx---xxxxxxx--5-5-5-5-6---------------|
pm^ ^ ^ ^ play once
Pre chorus
e|---------------------------------------------------------------------------|
B|---------------------------------------------------------------------------|
G|---------------------------------------------------------------------------|
D|-5-6-8-6-5-5--5--5--5-6----------------------------------------------------| x2
A|-5-6-8-6-5-5--5--5--5-6-x3-------------------------------------------------|
E|-5-6-8-6-5-5--5--5--5-6----------------------------------------------------|

Chorus
e|---------------------------------------------------------------------------|
B|---------------------------------------------------------------------------|
G|--5--------------------5---------------------------------------------------|
D|--5-x8-5-x8-3-----5----5---5--3--------------------------------------------|
A|--3----2----3-----5----3---5--3--------------------------------------------|
E|------------3-x16-5--------5--3--------------------------------------------|
this x2 then

Bridge repeat as many times as necessary
e|---------------------------------------------------------------------------|
B|---------------------------------------------------------------------------|
G|--------------------7-6-5-4------------------------------------------------|
D|-5--5--5--5-6-------x-x-x-x------------------------------------------------|
A|-5--5--5--5-6-------5-4-3-2------------------------------------------------|
E|-5--5--5--5-6--------------------------------------------------------------|
then thre leads plays

silent guitar verse come in with and after that verse play
e|--------------------------------------------------------------------------------|
B|--------------------------------------------------------------------------------|
G|--------------------------------------------------------------------------------|
D|-3--5-------------------------------3-5-6---------------------------------------|
A|-3--5-------------------------------3-5-6---------------------------------------|
E|-3--5-------------------------------3-5-6---------------------------------------|

Key
| / slide up
| \ slide down
| h hammer-on
| p pull-off
| ~ vibrato
| + harmonic
| x Mute note
| ^ Palm mute
| * Let ring
===============================================================================




Ваша любимая песня с альбома "Splash!!!: Harukanaru Jishuseisaku Best" (May 21, 2003)
Всего ответов: 17
500
Сейчас на сайте
Онлайн всего: 1
Гостей: 1
Пользователей: 0

Сегодня были