Четверг, 22.10.2020, 09:36
Приветствую Вас Гость |

Flow Island

Go!!! (Tabs)

Go
Naruto


Intro
|------------|------------|
|------------|------------|
|------------|------------|
|-4----------|--4---------| Ч2
|-2----------|--2---------|
|------------|------------|


Chorus (Ч2)
|------------|------------|
|------------|------------|
|------------|------------|
|-4----------|------------|
|-2----2-----|--4---2-----|
|------0-----|--2---0-----|

|------------|------------|
|------------|------------|
|------------|------------|
|-4----------|------------|
|-2----2-----|--4---------|
|------0-----|--2---------|


|------------|------------|
|------------|------------|
|------------|------------|
|-4----------|-4-----5----|
|-2----------|-2-----3----|
|------------|------------|

|------------|-------7--12-11-9-|
|------------|----s7--7---------|
|------------|------------------|
|-4----------|-4----------------|
|-2----------|-2----------------|
|------------|------------------|



Verse
|------------|------------|
|------------|------------|
|------------|------------|
|-4----------|-------4----| Ч2
|-2-----4----|--2----2----|
|-------2----|--0---------|



Pre Chorus
|------------|------------|
|------------|------------|
|------------|------------|
|------9-----|-11---------| Ч2
|-9----7-----|--9----9----|
|-7----------|-------7----|


Chorus (Ч2)
|------------|------------|
|------------|------------|
|------------|------------|
|-4----------|------------|
|-2----2-----|--4---2-----|
|------0-----|--2---0-----|

|------------|------------|
|------------|------------|
|------------|------------|
|-4----------|------------|
|-2----2-----|--4---------|
|------0-----|--2---------|


Outro
|------------|------------|
|------------|------------|
|------------|------------|
|-4----------|-4-----5----|
|-2----------|-2-----3----|
|------------|------------|

|------------|------------|
|------------|------------|
|------------|------------|
|-4----------|-4--2-2-3---|
|-2----------|-2--0-0-1---|
|------------|------------|

|------------|------------|
|------------|------------|
|------------|------------|
|-4----------|-4-----5----|
|-2----------|-2-----3----|
|------------|------------|

|------------|----------------7-12-11-9-|---|
|------------|-------------s7--7--------|---|
|------------|--------------------------|---|
|-4----------|-4--2-2-3-4---------------|-4-|
|-2----------|-2--0-0-1-2---------------|-2-|
|------------|--------------------------|---|




FULL VERSION RIFFS

PreVerse 1 ("right here, right now)
|------------|------------|
|------------|------------|
|------------|------------|
|-4----------|-4-----5----|
|-2----------|-2-----3----|
|------------|------------|

|------------|------------|
|------------|------------|
|------------|------------|
|-4----------|-4--2-2-3---|
|-2----------|-2--0-0-1---|
|------------|------------|

|------------|------------|
|------------|------------|
|------------|------------|
|-4----------|-4-----5----|
|-2----------|-2-----3----|
|------------|------------|

|------------|------------|
|------------|------------|
|------------|------------|
|-4----------|-4---9--11--|
|-2----------|-2---7---9--|
|------------|------------|



solo

|------------|------------------|
|------------|------------------|
|------------|------------------|
|-4----------|-9---12--14-12-11-|
|-2----7-----|-7---10--12-10--9-|
|------5-----|------------------|

|-12p11----13p11----12p11-|
|-------12-------12-------|
|-------------------------|
|-------------------------|
|-------------------------|

|-12p11----13p11----12p11-|
|-------12-------12-------|
|-------------------------|
|-------------------------|
|-------------------------|

|-12p11----13p11----12p11-|
|-------12-------12-------|
|-------------------------|
|-------------------------|
|-------------------------|

|-12p11----13p11----12p11-|
|-------12-------12-------|
|-------------------------|
|-------------------------|
|-------------------------|

|-s12-11-9---------------|
|----------s12-11-12-h14-|
|------------------------|
|------------------------|
|------------------------|

|-17p16----19p16----17p16----|
|-------17-------17-------17-|
|----------------------------| Ч3
|----------------------------|
|----------------------------|
|----------------------------|

|-17p16--------|
|-------17-19--|
|--------------|
|--------------|
|--------------|
|--------------|


|-15p14----17p14----15p14----|
|-------15-------15-------15-|
|----------------------------| Ч2
|----------------------------|
|----------------------------|
|----------------------------|

|-17p16----19p16----17p16----|
|-------17-------17-------17-|
|----------------------------|
|----------------------------|
|----------------------------|
|----------------------------|


|-15p14----17p14----15p14------s19--|
|-------15-------15-------15--------|
|-----------------------------------|
|-----------------------------------|
|-----------------------------------|
|-----------------------------------|






Ваша любимая песня с альбома "Game" (May 26, 2004)
Всего ответов: 27
500
Сейчас на сайте
Онлайн всего: 1
Гостей: 1
Пользователей: 0

Сегодня были